  0
SECTION
  2
HEADER
  9
$ACADVER
  1
AC1006
  9
$INSBASE
 10
979.000000
 20
-1865.028885
 30
0.0
  9
$EXTMIN
 10
979.000000
 20
-1865.028885
  9
$EXTMAX
 10
2819.556618
 20
-979.000000
  9
$LIMMIN
 10
979.000000
 20
-1865.028885
  9
$LIMMAX
 10
2819.556618
 20
-979.000000
  9
$VIEWCTR
 10
1899.278309
 20
-1422.014442
  9
$VIEWSIZE
 40
886.028885
  9
$SNAPMODE
 70
     0
  9
$SNAPUNIT
 10
1.0
 20
1.0
  9
$SNAPBASE
 10
0.0
 20
0.0
  9
$SNAPANG
 50
0.0
  9
$SNAPSTYLE
 70
     0
  9
$SNAPISOPAIR
 70
     0
  9
$GRIDMODE
 70
     0
  9
$GRIDUNIT
 10
0.0
 20
0.0
  9
$ORTHOMODE
 70
     0
  9
$REGENMODE
 70
     1
  9
$FILLMODE
 70
     1
  9
$QTEXTMODE
 70
     0
  9
$DRAGMODE
 70
     2
  9
$LTSCALE
 40
15.000000
  9
$OSMODE
 70
     0
  9
$ATTMODE
 70
     1
  9
$TEXTSIZE
 40
0.2
  9
$TRACEWID
 40
0.05
  9
$TEXTSTYLE
  7
STANDARD
  9
$CLAYER
  8
CSLAYER1
  9
$CELTYPE
  6
BYLAYER
  9
$CECOLOR
 62
   256
  9
$DIMSCALE
 40
1.0
  9
$DIMASZ
 40
0.18
  9
$DIMEXO
 40
0.0625
  9
$DIMDLI
 40
0.38
  9
$DIMRND
 40
0.0
  9
$DIMDLE
 40
0.0
  9
$DIMEXE
 40
0.18
  9
$DIMTP
 40
0.0
  9
$DIMTM
 40
0.0
  9
$DIMTXT
 40
0.18
  9
$DIMCEN
 40
0.09
  9
$DIMTSZ
 40
0.0
  9
$DIMTOL
 70
     0
  9
$DIMLIM
 70
     0
  9
$DIMTIH
 70
     1
  9
$DIMTOH
 70
     1
  9
$DIMSE1
 70
     0
  9
$DIMSE2
 70
     0
  9
$DIMTAD
 70
     0
  9
$DIMZIN
 70
     0
  9
$DIMBLK
  1

  9
$LUNITS
 70
     2
  9
$LUPREC
 70
     4
  9
$AXISMODE
 70
     0
  9
$AXISUNIT
 10
0.0
 20
0.0
  9
$SKETCHINC
 40
0.1
  9
$FILLETRAD
 40
0.0
  9
$AUNITS
 70
     0
  9
$AUPREC
 70
     0
  9
$MENU
  1
ACAD
  9
$ELEVATION
 40
0.0
  9
$THICKNESS
 40
0.0
  9
$VIEWDIR
 10
0.0
 20
0.0
 30
1.0
  9
$LIMCHECK
 70
     0
  9
$BLIPMODE
 70
     1
  9
$CHAMFERA
 40
0.0
  9
$CHAMFERB
 40
0.0
  9
$FASTZOOM
 70
     1
  9
$SKPOLY
 70
     0
  9
$TDCREATE
 40
2456494.000000
  9
$TDUPDATE
 40
2456494.000000
  9
$TDINDWG
 40
0.0
  9
$TDUSRTIMER
 40
0.0
  9
$USRTIMER
 70
     1
  9
$ANGBASE
 50
0.0
  9
$ANGDIR
 70
     0
  9
$PDMODE
 70
     0
  9
$PDSIZE
 40
0.0
  9
$PLINEWID
 40
0.0
  9
$COORDS
 70
     0
  9
$USERI1
 70
     0
  9
$USERI2
 70
     0
  9
$USERI3
 70
     0
  9
$USERI4
 70
     0
  9
$USERI5
 70
     0
  9
$USERR1
 40
0.0
  9
$USERR2
 40
0.0
  9
$USERR3
 40
0.0
  9
$USERR4
 40
0.0
  9
$USERR5
 40
0.0
  0
ENDSEC
  0
SECTION
  2
TABLES
  0
TABLE
  2
LTYPE
 70
     9
  0
LTYPE
  2
CONTINUOUS
 70
    64
  3
Solid line
 72
    65
 73
     0
 40
0.0
  0
LTYPE
  2
DASHED
 70
    64
  3
__ __ __ __ __ __ __ __ __ __ __ __ __ __ __
 72
    65
 73
     2
 40
0.75
 49
0.5
 49
-0.25
  0
LTYPE
  2
HIDDEN
 70
    64
  3
_ _ _ _ _ _ _ _ _ _ _ _ _ _ _ _ _ _ _ _ _ _ _
 72
    65
 73
     2
 40
0.375
 49
0.25
 49
-0.125
  0
LTYPE
  2
DOT
 70
    64
  3
...............................................
 72
    65
 73
     2
 40
0.25
 49
0.0
 49
-0.25
  0
LTYPE
  2
DASHDOT
 70
    64
  3
__ . __ . __ . __ . __ . __ . __ . __ . __ . __
 72
    65
 73
     4
 40
1.0
 49
0.5
 49
-0.25
 49
0.0
 49
-0.25
  0
LTYPE
  2
DIVIDE
 70
    64
  3
__ . . __ . . __ . . __ . . __ . . __ . . __
 72
    65
 73
     6
 40
1.25
 49
0.5
 49
-0.25
 49
0.0
 49
-0.25
 49
0.0
 49
-0.25
  0
LTYPE
  2
CENTER
 70
    64
  3
____ _ ____ _ ____ _ ____ _ ____ _ ____ _ ____ 
 72
    65
 73
     4
 40
2.0
 49
1.25
 49
-0.25
 49
0.25
 49
-0.25
  0
LTYPE
  2
PHANTOM
 70
    64
  3
______  __  __  ______  __  __  ______  __  __ 
 72
    65
 73
     6
 40
2.5
 49
1.25
 49
-0.25
 49
0.25
 49
-0.25
 49
0.25
 49
-0.25
  0
LTYPE
  2
BORDER
 70
    64
  3
__ __ . __ __ . __ __ . __ __ . __ __ . __ __ .
 72
    65
 73
     6
 40
1.75
 49
0.5
 49
-0.25
 49
0.5
 49
-0.25
 49
0.0
 49
-0.25
  0
ENDTAB
  0
TABLE
  2
LAYER
 70
    16
  0
LAYER
  2
CSLAYER1
 70
    64
 62
     7
  6
CONTINUOUS
  0
LAYER
  2
CSLAYER2
 70
    64
 62
     7
  6
CONTINUOUS
  0
LAYER
  2
CSLAYER3
 70
    64
 62
     7
  6
CONTINUOUS
  0
LAYER
  2
CSLAYER4
 70
    64
 62
     7
  6
CONTINUOUS
  0
LAYER
  2
CSLAYER5
 70
    64
 62
     7
  6
CONTINUOUS
  0
LAYER
  2
CSLAYER6
 70
    64
 62
     7
  6
CONTINUOUS
  0
LAYER
  2
CSLAYER7
 70
    64
 62
     7
  6
CONTINUOUS
  0
LAYER
  2
CSLAYER8
 70
    64
 62
     7
  6
CONTINUOUS
  0
LAYER
  2
CSLAYER9
 70
    64
 62
     7
  6
CONTINUOUS
  0
LAYER
  2
CSLAYER10
 70
    64
 62
     7
  6
CONTINUOUS
  0
LAYER
  2
CSLAYER11
 70
    64
 62
     7
  6
CONTINUOUS
  0
LAYER
  2
CSLAYER12
 70
    64
 62
     7
  6
CONTINUOUS
  0
LAYER
  2
CSLAYER13
 70
    64
 62
     7
  6
CONTINUOUS
  0
LAYER
  2
CSLAYER14
 70
    64
 62
     7
  6
CONTINUOUS
  0
LAYER
  2
CSLAYER15
 70
    64
 62
     7
  6
CONTINUOUS
  0
LAYER
  2
CSLAYER16
 70
    64
 62
     7
  6
CONTINUOUS
  0
ENDTAB
  0
TABLE
  2
STYLE
 70
     1
  0
STYLE
  2
EASYDRAW_FONT
 70
     0
 40
1.0
 41
1.0
 50
0.0
 71
     0
 42
1.0
  3
monotxt
  4
bigfont
  0
ENDTAB
  0
TABLE
  2
VIEW
 70
     0
  0
ENDTAB
  0
ENDSEC
  0
SECTION
  2
BLOCKS
  0
ENDSEC
  0
SECTION
  2
ENTITIES
  0
TEXT
  8
CSLAYER2
 62
     7
 10
1571.060181
 20
85.301590
 40
3.000000
 41
0.951818
  1
4000
 50
0.000000
 51
0.000000
  7
EASYDRAW_FONT
 72
     5
 11
1581.530180
 21
85.301590
  0
TEXT
  8
CSLAYER2
 62
     7
 10
1570.092163
 20
91.301590
 40
3.000000
 41
1.044545
  1
3650
 50
0.000000
 51
0.000000
  7
EASYDRAW_FONT
 72
     5
 11
1581.582163
 21
91.301590
  0
TEXT
  8
CSLAYER2
 62
     7
 10
1571.060181
 20
97.341606
 40
3.000000
 41
0.951818
  1
4000
 50
0.000000
 51
0.000000
  7
EASYDRAW_FONT
 72
     5
 11
1581.530180
 21
97.341606
  0
TEXT
  8
CSLAYER2
 62
     7
 10
1570.072144
 20
103.301590
 40
3.000000
 41
1.044545
  1
3650
 50
0.000000
 51
0.000000
  7
EASYDRAW_FONT
 72
     5
 11
1581.562143
 21
103.301590
  0
TEXT
  8
CSLAYER2
 62
     7
 10
1570.087524
 20
109.321594
 40
3.000000
 41
1.044545
  1
2730
 50
0.000000
 51
0.000000
  7
EASYDRAW_FONT
 72
     5
 11
1581.577524
 21
109.321594
  0
TEXT
  8
CSLAYER2
 62
     7
 10
1571.067627
 20
115.321594
 40
3.000000
 41
0.951818
  1
2000
 50
0.000000
 51
0.000000
  7
EASYDRAW_FONT
 72
     5
 11
1581.537626
 21
115.321594
  0
TEXT
  8
CSLAYER2
 62
     7
 10
1571.051147
 20
121.325859
 40
3.000000
 41
0.951818
  1
1820
 50
0.000000
 51
0.000000
  7
EASYDRAW_FONT
 72
     5
 11
1581.521148
 21
121.325859
  0
TEXT
  8
CSLAYER2
 62
     7
 10
1571.050903
 20
127.281586
 40
3.000000
 41
0.951818
  1
1350
 50
0.000000
 51
0.000000
  7
EASYDRAW_FONT
 72
     5
 11
1581.520904
 21
127.281586
  0
TEXT
  8
CSLAYER2
 62
     7
 10
1571.053711
 20
133.301590
 40
3.000000
 41
0.951818
  1
 910
 50
0.000000
 51
0.000000
  7
EASYDRAW_FONT
 72
     5
 11
1581.523711
 21
133.301590
  0
TEXT
  8
CSLAYER2
 62
     7
 10
1571.060181
 20
139.281586
 40
3.000000
 41
0.951818
  1
4000
 50
0.000000
 51
0.000000
  7
EASYDRAW_FONT
 72
     5
 11
1581.530180
 21
139.281586
  0
TEXT
  8
CSLAYER2
 62
     7
 10
1570.112427
 20
145.321487
 40
3.000000
 41
1.044545
  1
3650
 50
0.000000
 51
0.000000
  7
EASYDRAW_FONT
 72
     5
 11
1581.602427
 21
145.321487
  0
TEXT
  8
CSLAYER2
 62
     7
 10
1571.031128
 20
151.325745
 40
3.000000
 41
0.951818
  1
1820
 50
0.000000
 51
0.000000
  7
EASYDRAW_FONT
 72
     5
 11
1581.501128
 21
151.325745
  0
TEXT
  8
CSLAYER2
 62
     7
 10
1571.073486
 20
157.281693
 40
3.000000
 41
0.951818
  1
 910
 50
0.000000
 51
0.000000
  7
EASYDRAW_FONT
 72
     5
 11
1581.543487
 21
157.281693
  0
TEXT
  8
CSLAYER2
 62
     7
 10
1570.092163
 20
163.301590
 40
3.000000
 41
1.044545
  1
3650
 50
0.000000
 51
0.000000
  7
EASYDRAW_FONT
 72
     5
 11
1581.582163
 21
163.301590
  0
TEXT
  8
CSLAYER2
 62
     7
 10
1571.010864
 20
169.285843
 40
3.000000
 41
0.951818
  1
1820
 50
0.000000
 51
0.000000
  7
EASYDRAW_FONT
 72
     5
 11
1581.480865
 21
169.285843
  0
TEXT
  8
CSLAYER2
 62
     7
 10
1571.053711
 20
175.281693
 40
3.000000
 41
0.951818
  1
 910
 50
0.000000
 51
0.000000
  7
EASYDRAW_FONT
 72
     5
 11
1581.523711
 21
175.281693
  0
TEXT
  8
CSLAYER2
 62
     7
 10
1570.072144
 20
181.321594
 40
3.000000
 41
1.044545
  1
3650
 50
0.000000
 51
0.000000
  7
EASYDRAW_FONT
 72
     5
 11
1581.562143
 21
181.321594
  0
TEXT
  8
CSLAYER2
 62
     7
 10
1571.050903
 20
187.285843
 40
3.000000
 41
0.951818
  1
1820
 50
0.000000
 51
0.000000
  7
EASYDRAW_FONT
 72
     5
 11
1581.520904
 21
187.285843
  0
TEXT
  8
CSLAYER2
 62
     7
 10
1571.053711
 20
193.281693
 40
3.000000
 41
0.951818
  1
 910
 50
0.000000
 51
0.000000
  7
EASYDRAW_FONT
 72
     5
 11
1581.523711
 21
193.281693
  0
TEXT
  8
CSLAYER2
 62
     7
 10
1570.091919
 20
199.301590
 40
3.000000
 41
1.044545
  1
3650
 50
0.000000
 51
0.000000
  7
EASYDRAW_FONT
 72
     5
 11
1581.581919
 21
199.301590
  0
TEXT
  8
CSLAYER2
 62
     7
 10
1571.030884
 20
205.345871
 40
3.000000
 41
0.951818
  1
1820
 50
0.000000
 51
0.000000
  7
EASYDRAW_FONT
 72
     5
 11
1581.500884
 21
205.345871
  0
TEXT
  8
CSLAYER2
 62
     7
 10
1571.057373
 20
211.301590
 40
3.000000
 41
0.951818
  1
 910
 50
0.000000
 51
0.000000
  7
EASYDRAW_FONT
 72
     5
 11
1581.527373
 21
211.301590
  0
TEXT
  8
CSLAYER2
 62
     7
 10
1570.082397
 20
217.241043
 40
3.000000
 41
1.044545
  1
3650
 50
0.000000
 51
0.000000
  7
EASYDRAW_FONT
 72
     5
 11
1581.572397
 21
217.241043
  0
TEXT
  8
CSLAYER2
 62
     7
 10
1571.048828
 20
229.180496
 40
3.000000
 41
0.951818
  1
 910
 50
0.000000
 51
0.000000
  7
EASYDRAW_FONT
 72
     5
 11
1581.518828
 21
229.180496
  0
TEXT
  8
CSLAYER2
 62
     7
 10
1571.030518
 20
223.305847
 40
3.000000
 41
0.951818
  1
1820
 50
0.000000
 51
0.000000
  7
EASYDRAW_FONT
 72
     5
 11
1581.500518
 21
223.305847
  0
TEXT
  8
CSLAYER2
 62
     7
 10
1544.559570
 20
88.778152
 40
3.000000
 41
0.956493
  1
φ38.0
 50
0.000000
 51
0.000000
  7
EASYDRAW_FONT
 72
     5
 11
1557.950479
 21
88.778152
  0
TEXT
  8
CSLAYER2
 62
     7
 10
1544.559570
 20
115.793900
 40
3.000000
 41
0.956493
  1
φ32.0
 50
0.000000
 51
0.000000
  7
EASYDRAW_FONT
 72
     5
 11
1557.950479
 21
115.793900
  0
TEXT
  8
CSLAYER2
 62
     7
 10
1544.455566
 20
148.793900
 40
3.000000
 41
0.956493
  1
φ25.0
 50
0.000000
 51
0.000000
  7
EASYDRAW_FONT
 72
     5
 11
1557.846475
 21
148.793900
  0
TEXT
  8
CSLAYER2
 62
     7
 10
1544.247559
 20
169.793900
 40
3.000000
 41
0.923377
  1
φ19.0
 50
0.000000
 51
0.000000
  7
EASYDRAW_FONT
 72
     5
 11
1557.174831
 21
169.793900
  0
TEXT
  8
CSLAYER2
 62
     7
 10
1544.247559
 20
187.793900
 40
3.000000
 41
0.923377
  1
φ16.0
 50
0.000000
 51
0.000000
  7
EASYDRAW_FONT
 72
     5
 11
1557.174831
 21
187.793900
  0
TEXT
  8
CSLAYER2
 62
     7
 10
1544.247559
 20
205.793900
 40
3.000000
 41
0.939935
  1
φ12.7
 50
0.000000
 51
0.000000
  7
EASYDRAW_FONT
 72
     5
 11
1557.406649
 21
205.793900
  0
TEXT
  8
CSLAYER2
 62
     7
 10
1544.505859
 20
223.793900
 40
3.000000
 41
0.980727
  1
φ9.5
 50
0.000000
 51
0.000000
  7
EASYDRAW_FONT
 72
     5
 11
1555.293859
 21
223.793900
  0
TEXT
  8
CSLAYER2
 62
     7
 10
1573.004272
 20
234.820038
 40
3.887656
 41
1.149863
  1
長さ
 50
0.000000
 51
0.000000
  7
EASYDRAW_FONT
 72
     5
 11
1580.454725
 21
234.820038
  0
TEXT
  8
CSLAYER2
 62
     7
 10
1546.460693
 20
234.948685
 40
3.878763
 41
0.902126
  1
パイプ径
 50
0.000000
 51
0.000000
  7
EASYDRAW_FONT
 72
     5
 11
1559.290844
 21
234.948685
  0
TEXT
  8
CSLAYER2
 62
     7
 10
1558.124512
 20
240.909195
 40
4.199424
 41
0.991679
  1
サイズ
 50
0.000000
 51
0.000000
  7
EASYDRAW_FONT
 72
     5
 11
1569.229790
 21
240.909195
  0
TEXT
  8
CSLAYER2
 62
     7
 10
1708.124512
 20
105.853714
 40
3.000000
 41
0.682500
  1
0.1
 50
0.000000
 51
0.000000
  7
EASYDRAW_FONT
 72
     5
 11
1713.584512
 21
105.853714
  0
TEXT
  8
CSLAYER2
 62
     7
 10
1708.124512
 20
111.853714
 40
3.000000
 41
0.682500
  1
0.1
 50
0.000000
 51
0.000000
  7
EASYDRAW_FONT
 72
     5
 11
1713.584512
 21
111.853714
  0
TEXT
  8
CSLAYER2
 62
     7
 10
1708.124512
 20
117.853714
 40
3.000000
 41
0.682500
  1
0.1
 50
0.000000
 51
0.000000
  7
EASYDRAW_FONT
 72
     5
 11
1713.584512
 21
117.853714
  0
TEXT
  8
CSLAYER2
 62
     7
 10
1708.124512
 20
123.853714
 40
3.000000
 41
0.682500
  1
0.1
 50
0.000000
 51
0.000000
  7
EASYDRAW_FONT
 72
     5
 11
1713.584512
 21
123.853714
  0
TEXT
  8
CSLAYER2
 62
     7
 10
1675.356445
 20
123.853714
 40
3.000000
 41
0.810000
  1
0.5
 50
0.000000
 51
0.000000
  7
EASYDRAW_FONT
 72
     5
 11
1681.836446
 21
123.853714
  0
TEXT
  8
CSLAYER2
 62
     7
 10
1675.356445
 20
117.853714
 40
3.000000
 41
0.810000
  1
0.9
 50
0.000000
 51
0.000000
  7
EASYDRAW_FONT
 72
     5
 11
1681.836446
 21
117.853714
  0
TEXT
  8
CSLAYER2
 62
     7
 10
1675.356445
 20
111.837967
 40
3.000000
 41
0.810000
  1
0.8
 50
0.000000
 51
0.000000
  7
EASYDRAW_FONT
 72
     5
 11
1681.836446
 21
111.837967
  0
TEXT
  8
CSLAYER2
 62
     7
 10
1675.807861
 20
105.669258
 40
3.000000
 41
0.682500
  1
1.0
 50
0.000000
 51
0.000000
  7
EASYDRAW_FONT
 72
     5
 11
1681.267861
 21
105.669258
  0
TEXT
  8
CSLAYER2
 62
     7
 10
1631.361816
 20
105.837967
 40
3.000000
 41
1.023474
  1
φ32～φ38
 50
0.000000
 51
0.000000
  7
EASYDRAW_FONT
 72
     5
 11
1651.831292
 21
105.837967
  0
TEXT
  8
CSLAYER2
 62
     7
 10
1631.257813
 20
111.853714
 40
3.000000
 41
1.082500
  1
φ25
 50
0.000000
 51
0.000000
  7
EASYDRAW_FONT
 72
     5
 11
1639.917812
 21
111.853714
  0
TEXT
  8
CSLAYER2
 62
     7
 10
1631.050049
 20
117.853714
 40
3.000000
 41
0.947967
  1
φ12.7～φ19
 50
0.000000
 51
0.000000
  7
EASYDRAW_FONT
 72
     5
 11
1655.697194
 21
117.853714
  0
TEXT
  8
CSLAYER2
 62
     7
 10
1631.308350
 20
123.853714
 40
3.000000
 41
0.980727
  1
φ9.5
 50
0.000000
 51
0.000000
  7
EASYDRAW_FONT
 72
     5
 11
1642.096350
 21
123.853714
  0
TEXT
  8
CSLAYER2
 62
     7
 10
1634.225220
 20
129.878006
 40
2.666145
 41
1.237735
  1
パイプ径（A）
 50
0.000000
 51
0.000000
  7
EASYDRAW_FONT
 72
     5
 11
1656.225096
 21
129.878006
  0
TEXT
  8
CSLAYER2
 62
     7
 10
1664.356812
 20
129.878006
 40
2.549807
 41
1.223077
  1
芯鋼材の厚み（B）
 50
0.000000
 51
0.000000
  7
EASYDRAW_FONT
 72
     5
 11
1691.384762
 21
129.878006
  0
TEXT
  8
CSLAYER2
 62
     7
 10
1696.233521
 20
129.878006
 40
2.433468
 41
1.220690
  1
巻き鋼材の厚み（C）
 50
0.000000
 51
0.000000
  7
EASYDRAW_FONT
 72
     5
 11
1724.948447
 21
129.878006
  0
TEXT
  8
CSLAYER2
 62
     7
 10
1697.571533
 20
25.640213
 40
1.700000
 41
1.158621
  1
- お客様と共に -
 50
0.000000
 51
0.000000
  7
EASYDRAW_FONT
 72
     5
 11
1716.611534
 21
25.640213
  0
TEXT
  8
CSLAYER2
 62
     7
 10
1692.192383
 20
21.832352
 40
1.700000
 41
1.229269
  1
住環境に新しい価値を協創する
 50
0.000000
 51
0.000000
  7
EASYDRAW_FONT
 72
     5
 11
1720.752389
 21
21.832352
  0
TEXT
  8
CSLAYER2
 62
     7
 10
1694.214111
 20
32.787796
 40
4.000000
 41
0.981429
  1
NOGUCHI CORPORATION
 50
0.000000
 51
0.000000
  7
EASYDRAW_FONT
 72
     5
 11
1767.494110
 21
32.787796
  0
TEXT
  8
CSLAYER2
 62
     7
 10
1788.427979
 20
35.991043
 40
2.500000
 41
0.790345
  1
2013.07.19
 50
0.000000
 51
0.000000
  7
EASYDRAW_FONT
 72
     5
 11
1807.527979
 21
35.991043
  0
TEXT
  8
CSLAYER2
 62
     7
 10
1773.225830
 20
35.992630
 40
2.500000
 41
1.440000
  1
日付
 50
0.000000
 51
0.000000
  7
EASYDRAW_FONT
 72
     5
 11
1779.225830
 21
35.992630
  0
TEXT
  8
CSLAYER2
 62
     7
 10
1774.381592
 20
61.469315
 40
2.500000
 41
1.270588
  1
ヘアーライン
 50
0.000000
 51
0.000000
  7
EASYDRAW_FONT
 72
     5
 11
1792.381592
 21
61.469315
  0
TEXT
  8
CSLAYER2
 62
     7
 10
1745.781738
 20
56.453568
 40
2.500000
 41
1.090909
  1
SPCC
 50
0.000000
 51
0.000000
  7
EASYDRAW_FONT
 72
     5
 11
1755.781738
 21
56.453568
  0
TEXT
  8
CSLAYER2
 62
     7
 10
1745.781738
 20
61.456619
 40
2.500000
 41
1.028823
  1
SUS304
 50
0.000000
 51
0.000000
  7
EASYDRAW_FONT
 72
     5
 11
1760.356738
 21
61.456619
  0
TEXT
  8
CSLAYER2
 62
     7
 10
1694.034424
 20
56.214066
 40
2.500000
 41
1.350000
  1
芯鋼材
 50
0.000000
 51
0.000000
  7
EASYDRAW_FONT
 72
     5
 11
1703.034424
 21
56.214066
  0
TEXT
  8
CSLAYER2
 62
     7
 10
1694.310791
 20
61.214066
 40
2.500000
 41
1.309091
  1
巻き鋼材
 50
0.000000
 51
0.000000
  7
EASYDRAW_FONT
 72
     5
 11
1706.310791
 21
61.214066
  0
TEXT
  8
CSLAYER2
 62
     7
 10
1752.538086
 20
51.229813
 40
2.500000
 41
1.440000
  1
材質
 50
0.000000
 51
0.000000
  7
EASYDRAW_FONT
 72
     5
 11
1758.538086
 21
51.229813
  0
TEXT
  8
CSLAYER2
 62
     7
 10
1788.372803
 20
51.211014
 40
2.500000
 41
1.285714
  1
仕様・規格
 50
0.000000
 51
0.000000
  7
EASYDRAW_FONT
 72
     5
 11
1803.372803
 21
51.211014
  0
TEXT
  8
CSLAYER2
 62
     7
 10
1711.608887
 20
51.214066
 40
2.500000
 41
1.350000
  1
部品名
 50
0.000000
 51
0.000000
  7
EASYDRAW_FONT
 72
     5
 11
1720.608887
 21
51.214066
  0
TEXT
  8
CSLAYER2
 62
     7
 10
1773.965576
 20
23.019974
 40
3.500000
 41
0.959210
  1
NOGJ-20130620
 50
0.000000
 51
0.000000
  7
EASYDRAW_FONT
 72
     5
 11
1816.490574
 21
23.019974
  0
TEXT
  8
CSLAYER2
 62
     7
 10
1729.512207
 20
22.406570
 40
4.000000
 41
1.260000
  1
株式会社ノグチ
 50
0.000000
 51
0.000000
  7
EASYDRAW_FONT
 72
     5
 11
1763.112205
 21
22.406570
  0
TEXT
  8
CSLAYER2
 62
     7
 10
1695.785156
 20
42.936234
 40
4.000000
 41
1.350000
  1
製品名
 50
0.000000
 51
0.000000
  7
EASYDRAW_FONT
 72
     5
 11
1710.185157
 21
42.936234
  0
TEXT
  8
CSLAYER2
 62
     7
 10
1727.081543
 20
42.492752
 40
4.500000
 41
1.241379
  1
ステンレス巻きパイプ
 50
0.000000
 51
0.000000
  7
EASYDRAW_FONT
 72
     5
 11
1781.081549
 21
42.492752
  0
LINE
  8
CSLAYER2
  6
CONTINUOUS
 62
     2
 10
1428.667398
 20
298.593190
 11
1428.667398
 21
20.000000
  0
LINE
  8
CSLAYER2
  6
CONTINUOUS
 62
     2
 10
1428.667398
 20
20.000000
 11
1820.556618
 21
20.000000
  0
LINE
  8
CSLAYER2
  6
CONTINUOUS
 62
     2
 10
1820.556618
 20
298.593190
 11
1428.667398
 21
298.593190
  0
LINE
  8
CSLAYER2
  6
CONTINUOUS
 62
     2
 10
1690.556618
 20
50.000000
 11
1820.556618
 21
50.000000
  0
LINE
  8
CSLAYER2
  6
CONTINUOUS
 62
     2
 10
1690.556618
 20
50.000000
 11
1690.556618
 21
20.000000
  0
LINE
  8
CSLAYER2
  6
CONTINUOUS
 62
     2
 10
1690.556618
 20
40.000000
 11
1820.556618
 21
40.000000
  0
LINE
  8
CSLAYER2
  6
CONTINUOUS
 62
     2
 10
1690.556618
 20
30.000000
 11
1820.556618
 21
30.000000
  0
LINE
  8
CSLAYER2
  6
CONTINUOUS
 62
     2
 10
1771.063468
 20
20.000000
 11
1771.063468
 21
30.000000
  0
LINE
  8
CSLAYER2
  6
CONTINUOUS
 62
     2
 10
1771.063468
 20
30.000000
 11
1771.063468
 21
40.000000
  0
LINE
  8
CSLAYER2
  6
CONTINUOUS
 62
     2
 10
1719.701648
 20
50.000000
 11
1719.701648
 21
40.000000
  0
LINE
  8
CSLAYER2
  6
CONTINUOUS
 62
     2
 10
1771.063468
 20
35.000000
 11
1820.556618
 21
35.000000
  0
LINE
  8
CSLAYER2
  6
CONTINUOUS
 62
     7
 10
1771.960939
 20
60.000000
 11
1771.960939
 21
50.000000
  0
LINE
  8
CSLAYER2
  6
CONTINUOUS
 62
     7
 10
1742.500303
 20
60.000000
 11
1742.500303
 21
50.000000
  0
LINE
  8
CSLAYER2
  6
CONTINUOUS
 62
     7
 10
1690.556618
 20
55.000000
 11
1690.556618
 21
60.000000
  0
LINE
  8
CSLAYER2
  6
CONTINUOUS
 62
     7
 10
1690.556618
 20
50.000000
 11
1690.556618
 21
55.000000
  0
LINE
  8
CSLAYER2
  6
CONTINUOUS
 62
     7
 10
1690.556618
 20
55.000000
 11
1820.556618
 21
55.000000
  0
LINE
  8
CSLAYER2
  6
CONTINUOUS
 62
     7
 10
1690.556618
 20
60.000000
 11
1820.556618
 21
60.000000
  0
LINE
  8
CSLAYER2
  6
CONTINUOUS
 62
     7
 10
1690.556618
 20
65.000000
 11
1820.556618
 21
65.000000
  0
LINE
  8
CSLAYER2
  6
CONTINUOUS
 62
     7
 10
1690.556618
 20
60.000000
 11
1690.556618
 21
65.000000
  0
LINE
  8
CSLAYER2
  6
CONTINUOUS
 62
     7
 10
1742.500303
 20
65.000000
 11
1742.500303
 21
60.000000
  0
LINE
  8
CSLAYER2
  6
CONTINUOUS
 62
     7
 10
1771.960939
 20
65.000000
 11
1771.960939
 21
60.000000
  0
LINE
  8
CSLAYER2
  6
CONTINUOUS
 62
     2
 10
1785.859568
 20
40.000000
 11
1785.859568
 21
30.000000
  0
LINE
  8
CSLAYER2
  6
CONTINUOUS
 62
     2
 10
1820.556618
 20
298.593190
 11
1820.556618
 21
20.000000
  0
LINE
  8
CSLAYER2
  6
CONTINUOUS
 62
     7
 10
1658.947841
 20
218.282184
 11
1696.947841
 21
218.282184
  0
LINE
  8
CSLAYER2
  6
CONTINUOUS
 62
     7
 10
1659.947841
 20
192.150914
 11
1659.947841
 21
218.282184
  0
LINE
  8
CSLAYER2
  6
CONTINUOUS
 62
     7
 10
1663.947841
 20
193.680864
 11
1663.947841
 21
218.282184
  0
LINE
  8
CSLAYER2
  6
CONTINUOUS
 62
     7
 10
1691.947841
 20
183.186964
 11
1691.947841
 21
218.282184
  0
LINE
  8
CSLAYER2
  6
CONTINUOUS
 62
     7
 10
1695.947841
 20
183.441784
 11
1695.947841
 21
218.282184
  0
LINE
  8
CSLAYER2
  6
CONTINUOUS
 62
     7
 10
1696.947841
 20
164.964924
 11
1696.947841
 21
218.282184
  0
LINE
  8
CSLAYER2
  6
CONTINUOUS
 62
     7
 10
1658.947841
 20
164.964924
 11
1658.947841
 21
218.282184
  0
LINE
  8
CSLAYER2
  6
CONTINUOUS
 62
     7
 10
1695.428781
 20
183.336724
 11
1695.947841
 21
183.855774
  0
LINE
  8
CSLAYER2
  6
CONTINUOUS
 62
     7
 10
1691.947841
 20
184.098414
 11
1695.947841
 21
188.098414
  0
LINE
  8
CSLAYER2
  6
CONTINUOUS
 62
     7
 10
1691.947841
 20
188.341054
 11
1695.947841
 21
192.341054
  0
LINE
  8
CSLAYER2
  6
CONTINUOUS
 62
     7
 10
1691.947841
 20
192.583704
 11
1695.947841
 21
196.583704
  0
LINE
  8
CSLAYER2
  6
CONTINUOUS
 62
     7
 10
1691.947841
 20
196.826344
 11
1695.947841
 21
200.826344
  0
LINE
  8
CSLAYER2
  6
CONTINUOUS
 62
     7
 10
1691.947841
 20
201.068984
 11
1695.947841
 21
205.068984
  0
LINE
  8
CSLAYER2
  6
CONTINUOUS
 62
     7
 10
1691.947841
 20
205.311624
 11
1695.947841
 21
209.311624
  0
LINE
  8
CSLAYER2
  6
CONTINUOUS
 62
     7
 10
1691.947841
 20
209.554264
 11
1695.947841
 21
213.554264
  0
LINE
  8
CSLAYER2
  6
CONTINUOUS
 62
     7
 10
1691.947841
 20
213.796904
 11
1695.947841
 21
217.796904
  0
LINE
  8
CSLAYER2
  6
CONTINUOUS
 62
     7
 10
1691.947841
 20
218.039544
 11
1692.190481
 21
218.282184
  0
LINE
  8
CSLAYER2
  6
CONTINUOUS
 62
     7
 10
1663.074611
 20
193.408954
 11
1663.947841
 21
194.282184
  0
LINE
  8
CSLAYER2
  6
CONTINUOUS
 62
     7
 10
1659.947841
 20
194.524824
 11
1663.947841
 21
198.524824
  0
LINE
  8
CSLAYER2
  6
CONTINUOUS
 62
     7
 10
1659.947841
 20
198.767464
 11
1663.947841
 21
202.767464
  0
LINE
  8
CSLAYER2
  6
CONTINUOUS
 62
     7
 10
1659.947841
 20
203.010104
 11
1663.947841
 21
207.010104
  0
LINE
  8
CSLAYER2
  6
CONTINUOUS
 62
     7
 10
1659.947841
 20
207.252744
 11
1663.947841
 21
211.252744
  0
LINE
  8
CSLAYER2
  6
CONTINUOUS
 62
     7
 10
1659.947841
 20
211.495384
 11
1663.947841
 21
215.495384
  0
LINE
  8
CSLAYER2
  6
CONTINUOUS
 62
     7
 10
1659.947841
 20
215.738024
 11
1662.492001
 21
218.282184
  0
LINE
  8
CSLAYER2
  6
CONTINUOUS
 62
     7
 10
1691.947841
 20
228.601884
 11
1695.947841
 21
228.601884
  0
LINE
  8
CSLAYER2
  6
CONTINUOUS
 62
     7
 10
1691.947841
 20
228.601884
 11
1689.112200
 21
229.101884
  0
LINE
  8
CSLAYER2
  6
CONTINUOUS
 62
     7
 10
1689.112200
 20
228.101884
 11
1691.947841
 21
228.601884
  0
LINE
  8
CSLAYER2
  6
CONTINUOUS
 62
     7
 10
1682.629756
 20
228.601884
 11
1691.947841
 21
228.601884
  0
LINE
  8
CSLAYER2
  6
CONTINUOUS
 62
     7
 10
1695.947841
 20
228.601884
 11
1700.947841
 21
228.601884
  0
LINE
  8
CSLAYER2
  6
CONTINUOUS
 62
     7
 10
1691.947841
 20
219.282184
 11
1691.947841
 21
229.601884
  0
TEXT
  8
CSLAYER2
 62
     7
 10
1683.420166
 20
230.741898
 40
3.600000
 41
1.500000
  1
B
 50
0.000000
 51
0.000000
  7
EASYDRAW_FONT
 72
     5
 11
1687.020166
 21
230.741898
  0
LINE
  8
CSLAYER2
  6
CONTINUOUS
 62
     7
 10
1695.947841
 20
228.601884
 11
1696.947841
 21
228.601884
  0
LINE
  8
CSLAYER2
  6
CONTINUOUS
 62
     7
 10
1696.947841
 20
228.601884
 11
1699.783482
 21
228.101884
  0
LINE
  8
CSLAYER2
  6
CONTINUOUS
 62
     7
 10
1699.783482
 20
229.101884
 11
1696.947841
 21
228.601884
  0
LINE
  8
CSLAYER2
  6
CONTINUOUS
 62
     7
 10
1696.947841
 20
228.601884
 11
1704.099408
 21
228.601884
  0
LINE
  8
CSLAYER2
  6
CONTINUOUS
 62
     7
 10
1695.947841
 20
219.282184
 11
1695.947841
 21
229.601884
  0
LINE
  8
CSLAYER2
  6
CONTINUOUS
 62
     7
 10
1696.947841
 20
219.282184
 11
1696.947841
 21
229.601884
  0
TEXT
  8
CSLAYER2
 62
     7
 10
1700.359375
 20
230.723831
 40
3.600000
 41
1.500000
  1
C
 50
0.000000
 51
0.000000
  7
EASYDRAW_FONT
 72
     5
 11
1703.959375
 21
230.723831
  0
CIRCLE
  8
CSLAYER2
  6
CONTINUOUS
 62
     4
 10
1695.947841
 20
228.601884
 40
0.200000
  0
CIRCLE
  8
CSLAYER2
  6
CONTINUOUS
 62
     4
 10
1695.947841
 20
228.601884
 40
0.300000
  0
CIRCLE
  8
CSLAYER2
  6
CONTINUOUS
 62
     4
 10
1695.947841
 20
228.601884
 40
0.050000
  0
CIRCLE
  8
CSLAYER2
  6
CONTINUOUS
 62
     4
 10
1695.947841
 20
228.601884
 40
0.100000
  0
LINE
  8
CSLAYER2
  6
CONTINUOUS
 62
     7
 10
1695.947841
 20
219.282184
 11
1695.947841
 21
236.103692
  0
LINE
  8
CSLAYER2
  6
CONTINUOUS
 62
     7
 10
1660.886526
 20
134.296599
 11
1660.886526
 21
104.296599
  0
LINE
  8
CSLAYER2
  6
CONTINUOUS
 62
     7
 10
1628.787572
 20
134.296599
 11
1628.787572
 21
104.296599
  0
LINE
  8
CSLAYER2
  6
CONTINUOUS
 62
     7
 10
1628.787572
 20
128.296599
 11
1726.644784
 21
128.296599
  0
LINE
  8
CSLAYER2
  6
CONTINUOUS
 62
     7
 10
1628.787572
 20
122.296599
 11
1726.644784
 21
122.296599
  0
LINE
  8
CSLAYER2
  6
CONTINUOUS
 62
     7
 10
1628.787572
 20
116.296599
 11
1726.644784
 21
116.296599
  0
LINE
  8
CSLAYER2
  6
CONTINUOUS
 62
     7
 10
1628.787572
 20
110.296599
 11
1726.644784
 21
110.296599
  0
LINE
  8
CSLAYER2
  6
CONTINUOUS
 62
     7
 10
1628.787572
 20
116.296599
 11
1716.438512
 21
116.296599
  0
LINE
  8
CSLAYER2
  6
CONTINUOUS
 62
     7
 10
1693.765655
 20
134.296599
 11
1693.765655
 21
104.296599
  0
LINE
  8
CSLAYER2
  6
CONTINUOUS
 62
     7
 10
1628.787572
 20
134.296599
 11
1726.644784
 21
134.296599
  0
LINE
  8
CSLAYER2
  6
CONTINUOUS
 62
     7
 10
1726.644784
 20
134.296599
 11
1726.644784
 21
104.296599
  0
LINE
  8
CSLAYER2
  6
CONTINUOUS
 62
     7
 10
1628.787572
 20
104.296599
 11
1726.644784
 21
104.296599
  0
LINE
  8
CSLAYER2
  6
CONTINUOUS
 62
     7
 10
1658.947841
 20
154.722285
 11
1661.783482
 21
154.222285
  0
LINE
  8
CSLAYER2
  6
CONTINUOUS
 62
     7
 10
1661.783482
 20
155.222285
 11
1658.947841
 21
154.722285
  0
LINE
  8
CSLAYER2
  6
CONTINUOUS
 62
     7
 10
1696.947841
 20
154.722285
 11
1694.112200
 21
155.222285
  0
LINE
  8
CSLAYER2
  6
CONTINUOUS
 62
     7
 10
1694.112200
 20
154.222285
 11
1696.947841
 21
154.722285
  0
LINE
  8
CSLAYER2
  6
CONTINUOUS
 62
     7
 10
1658.947841
 20
154.722285
 11
1696.947841
 21
154.722285
  0
LINE
  8
CSLAYER2
  6
CONTINUOUS
 62
     7
 10
1658.947841
 20
163.964924
 11
1658.947841
 21
153.722285
  0
LINE
  8
CSLAYER2
  6
CONTINUOUS
 62
     7
 10
1696.947841
 20
163.964924
 11
1696.947841
 21
153.722285
  0
TEXT
  8
CSLAYER2
 62
     7
 10
1676.127441
 20
156.862259
 40
3.600000
 41
1.500000
  1
A
 50
0.000000
 51
0.000000
  7
EASYDRAW_FONT
 72
     5
 11
1679.727441
 21
156.862259
  0
ARC
  8
CSLAYER2
  6
CONTINUOUS
 62
     7
 10
1674.210213
 20
160.910091
 40
34.351277
 50
108.450647
 51
116.378750
  0
ARC
  8
CSLAYER2
  6
CONTINUOUS
 62
     7
 10
1667.799371
 20
180.550487
 40
13.692174
 50
91.485051
 51
109.014067
  0
ARC
  8
CSLAYER2
  6
CONTINUOUS
 62
     7
 10
1667.435163
 20
183.300953
 40
10.937112
 50
67.278740
 51
89.950968
  0
ARC
  8
CSLAYER2
  6
CONTINUOUS
 62
     7
 10
1662.684977
 20
171.429384
 40
23.723013
 50
56.992651
 51
67.771027
  0
ARC
  8
CSLAYER2
  6
CONTINUOUS
 62
     7
 10
1620.716367
 20
104.405061
 40
102.800344
 50
55.110628
 51
57.726348
  0
ARC
  8
CSLAYER2
  6
CONTINUOUS
 62
     7
 10
1707.974999
 20
229.539185
 40
49.753311
 50
235.112176
 51
242.312808
  0
ARC
  8
CSLAYER2
  6
CONTINUOUS
 62
     7
 10
1695.365886
 20
205.205345
 40
22.347453
 50
241.950692
 51
256.095999
  0
ARC
  8
CSLAYER2
  6
CONTINUOUS
 62
     7
 10
1693.142211
 20
196.110440
 40
12.984720
 50
255.977096
 51
286.621277
  0
LINE
  8
CSLAYER2
  6
CONTINUOUS
 62
     7
 10
1696.856415
 20
183.668269
 11
1696.947843
 21
183.693795
  0
LINE
  8
CSLAYER2
  6
CONTINUOUS
 62
     7
 10
1540.531174
 20
239.807992
 11
1586.630129
 21
239.807992
  0
LINE
  8
CSLAYER2
  6
CONTINUOUS
 62
     7
 10
1540.531174
 20
233.807992
 11
1586.630129
 21
233.807992
  0
LINE
  8
CSLAYER2
  6
CONTINUOUS
 62
     7
 10
1540.531174
 20
215.807992
 11
1586.630129
 21
215.807992
  0
LINE
  8
CSLAYER2
  6
CONTINUOUS
 62
     7
 10
1540.531174
 20
179.807992
 11
1586.630129
 21
179.807992
  0
LINE
  8
CSLAYER2
  6
CONTINUOUS
 62
     7
 10
1540.531174
 20
197.807992
 11
1586.630129
 21
197.807992
  0
LINE
  8
CSLAYER2
  6
CONTINUOUS
 62
     7
 10
1540.531174
 20
161.807992
 11
1586.630129
 21
161.807992
  0
LINE
  8
CSLAYER2
  6
CONTINUOUS
 62
     7
 10
1540.531174
 20
137.807992
 11
1586.630129
 21
137.807992
  0
LINE
  8
CSLAYER2
  6
CONTINUOUS
 62
     7
 10
1540.531174
 20
95.807992
 11
1586.630129
 21
95.807992
  0
LINE
  8
CSLAYER2
  6
CONTINUOUS
 62
     7
 10
1540.531174
 20
83.807992
 11
1586.630129
 21
83.807992
  0
LINE
  8
CSLAYER2
  6
CONTINUOUS
 62
     7
 10
1566.288725
 20
239.807992
 11
1566.288725
 21
83.807992
  0
LINE
  8
CSLAYER2
  6
CONTINUOUS
 62
     7
 10
1540.531174
 20
83.807992
 11
1540.531174
 21
245.807992
  0
LINE
  8
CSLAYER2
  6
CONTINUOUS
 62
     7
 10
1540.531174
 20
245.807992
 11
1586.630129
 21
245.807992
  0
LINE
  8
CSLAYER2
  6
CONTINUOUS
 62
     7
 10
1586.630129
 20
83.807992
 11
1586.630129
 21
245.807992
  0
LINE
  8
CSLAYER2
  6
CONTINUOUS
 62
     7
 10
1566.288725
 20
227.807992
 11
1586.630129
 21
227.807992
  0
LINE
  8
CSLAYER2
  6
CONTINUOUS
 62
     7
 10
1566.288725
 20
221.807992
 11
1586.630129
 21
221.807992
  0
LINE
  8
CSLAYER2
  6
CONTINUOUS
 62
     7
 10
1566.288725
 20
209.807992
 11
1586.630129
 21
209.807992
  0
LINE
  8
CSLAYER2
  6
CONTINUOUS
 62
     7
 10
1566.288725
 20
203.807992
 11
1586.630129
 21
203.807992
  0
LINE
  8
CSLAYER2
  6
CONTINUOUS
 62
     7
 10
1566.288725
 20
191.807992
 11
1586.630129
 21
191.807992
  0
LINE
  8
CSLAYER2
  6
CONTINUOUS
 62
     7
 10
1566.288725
 20
185.807992
 11
1586.630129
 21
185.807992
  0
LINE
  8
CSLAYER2
  6
CONTINUOUS
 62
     7
 10
1566.288725
 20
173.807992
 11
1586.630129
 21
173.807992
  0
LINE
  8
CSLAYER2
  6
CONTINUOUS
 62
     7
 10
1566.288725
 20
167.807992
 11
1586.630129
 21
167.807992
  0
LINE
  8
CSLAYER2
  6
CONTINUOUS
 62
     7
 10
1566.288725
 20
155.807992
 11
1586.630129
 21
155.807992
  0
LINE
  8
CSLAYER2
  6
CONTINUOUS
 62
     7
 10
1566.288725
 20
149.807992
 11
1586.630129
 21
149.807992
  0
LINE
  8
CSLAYER2
  6
CONTINUOUS
 62
     7
 10
1566.288725
 20
143.807992
 11
1586.630129
 21
143.807992
  0
LINE
  8
CSLAYER2
  6
CONTINUOUS
 62
     7
 10
1566.288725
 20
131.807992
 11
1586.630129
 21
131.807992
  0
LINE
  8
CSLAYER2
  6
CONTINUOUS
 62
     7
 10
1566.288725
 20
125.807992
 11
1586.630129
 21
125.807992
  0
LINE
  8
CSLAYER2
  6
CONTINUOUS
 62
     7
 10
1566.288725
 20
119.807992
 11
1586.630129
 21
119.807992
  0
LINE
  8
CSLAYER2
  6
CONTINUOUS
 62
     7
 10
1566.288725
 20
113.807992
 11
1586.630129
 21
113.807992
  0
LINE
  8
CSLAYER2
  6
CONTINUOUS
 62
     7
 10
1566.288725
 20
107.807992
 11
1586.630129
 21
107.807992
  0
LINE
  8
CSLAYER2
  6
CONTINUOUS
 62
     7
 10
1566.288725
 20
101.807992
 11
1586.630129
 21
101.807992
  0
LINE
  8
CSLAYER2
  6
CONTINUOUS
 62
     7
 10
1566.288725
 20
89.807992
 11
1586.630129
 21
89.807992
  0
ENDSEC
  0
EOF
